ISO-10303-21;
HEADER;
FILE_DESCRIPTION((''),'2;1');
FILE_NAME('PRK1-5_2A_AP','2019-07-19T',('Christian Carl'),(''),
'CREO PARAMETRIC BY PTC INC, 2016380','CREO PARAMETRIC BY PTC INC, 2016380','');
FILE_SCHEMA(('CONFIG_CONTROL_DESIGN'));
ENDSEC;
DATA;
#2=CARTESIAN_POINT('',(2.22E1,8.E-1,0.E0));
#3=DIRECTION('',(0.E0,0.E0,-1.E0));
#4=DIRECTION('',(1.E0,0.E0,0.E0));
#5=AXIS2_PLACEMENT_3D('',#2,#3,#4);
#7=CARTESIAN_POINT('',(2.22E1,1.306476348052E1,0.E0));
#8=DIRECTION('',(0.E0,0.E0,1.E0));
#9=DIRECTION('',(1.E0,0.E0,0.E0));
#10=AXIS2_PLACEMENT_3D('',#7,#8,#9);
#12=CARTESIAN_POINT('',(2.181114897227E1,2.42E1,0.E0));
#13=DIRECTION('',(0.E0,0.E0,-1.E0));
#14=DIRECTION('',(0.E0,1.E0,0.E0));
#15=AXIS2_PLACEMENT_3D('',#12,#13,#14);
#17=DIRECTION('',(-1.E0,0.E0,0.E0));
#18=VECTOR('',#17,4.362229794453E1);
#19=CARTESIAN_POINT('',(2.181114897227E1,2.45E1,0.E0));
#20=LINE('',#19,#18);
#21=CARTESIAN_POINT('',(-2.181114897227E1,2.42E1,0.E0));
#22=DIRECTION('',(0.E0,0.E0,-1.E0));
#23=DIRECTION('',(-9.993908270191E-1,3.489949670250E-2,0.E0));
#24=AXIS2_PLACEMENT_3D('',#21,#22,#23);
#26=CARTESIAN_POINT('',(-2.22E1,1.306476348052E1,0.E0));
#27=DIRECTION('',(0.E0,0.E0,1.E0));
#28=DIRECTION('',(-9.993908270191E-1,3.489949670250E-2,0.E0));
#29=AXIS2_PLACEMENT_3D('',#26,#27,#28);
#31=CARTESIAN_POINT('',(-2.22E1,8.E-1,0.E0));
#32=DIRECTION('',(0.E0,0.E0,-1.E0));
#33=DIRECTION('',(0.E0,-1.E0,0.E0));
#34=AXIS2_PLACEMENT_3D('',#31,#32,#33);
#36=DIRECTION('',(1.E0,0.E0,0.E0));
#37=VECTOR('',#36,4.44E1);
#38=CARTESIAN_POINT('',(-2.22E1,5.E-1,0.E0));
#39=LINE('',#38,#37);
#40=CARTESIAN_POINT('',(2.22E1,8.E-1,1.5E0));
#41=DIRECTION('',(0.E0,0.E0,1.E0));
#42=DIRECTION('',(0.E0,-1.E0,0.E0));
#43=AXIS2_PLACEMENT_3D('',#40,#41,#42);
#45=DIRECTION('',(1.E0,0.E0,0.E0));
#46=VECTOR('',#45,4.44E1);
#47=CARTESIAN_POINT('',(-2.22E1,5.E-1,1.5E0));
#48=LINE('',#47,#46);
#49=CARTESIAN_POINT('',(-2.22E1,8.E-1,1.5E0));
#50=DIRECTION('',(0.E0,0.E0,1.E0));
#51=DIRECTION('',(-1.E0,0.E0,0.E0));
#52=AXIS2_PLACEMENT_3D('',#49,#50,#51);
#54=DIRECTION('',(0.E0,1.E0,0.E0));
#55=VECTOR('',#54,1.226476348052E1);
#56=CARTESIAN_POINT('',(-2.25E1,8.E-1,1.5E0));
#57=LINE('',#56,#55);
#58=CARTESIAN_POINT('',(-2.22E1,1.306476348052E1,1.5E0));
#59=DIRECTION('',(0.E0,0.E0,-1.E0));
#60=DIRECTION('',(-1.E0,0.E0,0.E0));
#61=AXIS2_PLACEMENT_3D('',#58,#59,#60);
#63=DIRECTION('',(3.489949670250E-2,9.993908270191E-1,0.E0));
#64=VECTOR('',#63,1.114202393941E1);
#65=CARTESIAN_POINT('',(-2.249981724811E1,1.307523332953E1,1.5E0));
#66=LINE('',#65,#64);
#67=CARTESIAN_POINT('',(-2.181114897227E1,2.42E1,1.5E0));
#68=DIRECTION('',(0.E0,0.E0,1.E0));
#69=DIRECTION('',(-1.184237892933E-14,1.E0,0.E0));
#70=AXIS2_PLACEMENT_3D('',#67,#68,#69);
#72=DIRECTION('',(-1.E0,0.E0,0.E0));
#73=VECTOR('',#72,4.362229794453E1);
#74=CARTESIAN_POINT('',(2.181114897227E1,2.45E1,1.5E0));
#75=LINE('',#74,#73);
#76=CARTESIAN_POINT('',(2.181114897227E1,2.42E1,1.5E0));
#77=DIRECTION('',(0.E0,0.E0,1.E0));
#78=DIRECTION('',(9.993908270191E-1,3.489949670250E-2,0.E0));
#79=AXIS2_PLACEMENT_3D('',#76,#77,#78);
#81=DIRECTION('',(3.489949670250E-2,-9.993908270191E-1,0.E0));
#82=VECTOR('',#81,1.114202393942E1);
#83=CARTESIAN_POINT('',(2.211096622037E1,2.421046984901E1,1.5E0));
#84=LINE('',#83,#82);
#85=CARTESIAN_POINT('',(2.22E1,1.306476348052E1,1.5E0));
#86=DIRECTION('',(0.E0,0.E0,-1.E0));
#87=DIRECTION('',(9.993908270191E-1,3.489949670251E-2,0.E0));
#88=AXIS2_PLACEMENT_3D('',#85,#86,#87);
#90=DIRECTION('',(0.E0,1.E0,0.E0));
#91=VECTOR('',#90,1.226476348052E1);
#92=CARTESIAN_POINT('',(2.25E1,8.E-1,1.5E0));
#93=LINE('',#92,#91);
#94=CARTESIAN_POINT('',(0.E0,1.255E1,1.5E0));
#95=DIRECTION('',(0.E0,0.E0,1.E0));
#96=DIRECTION('',(0.E0,1.E0,0.E0));
#97=AXIS2_PLACEMENT_3D('',#94,#95,#96);
#99=CARTESIAN_POINT('',(0.E0,1.255E1,1.5E0));
#100=DIRECTION('',(0.E0,0.E0,1.E0));
#101=DIRECTION('',(0.E0,-1.E0,0.E0));
#102=AXIS2_PLACEMENT_3D('',#99,#100,#101);
#104=DIRECTION('',(0.E0,0.E0,1.E0));
#105=VECTOR('',#104,1.5E0);
#106=CARTESIAN_POINT('',(2.22E1,5.E-1,0.E0));
#107=LINE('',#106,#105);
#108=DIRECTION('',(0.E0,0.E0,-1.E0));
#109=VECTOR('',#108,1.5E0);
#110=CARTESIAN_POINT('',(-2.22E1,5.E-1,1.5E0));
#111=LINE('',#110,#109);
#112=DIRECTION('',(0.E0,0.E0,-1.E0));
#113=VECTOR('',#112,1.5E0);
#114=CARTESIAN_POINT('',(-2.25E1,8.E-1,1.5E0));
#115=LINE('',#114,#113);
#116=DIRECTION('',(0.E0,1.E0,0.E0));
#117=VECTOR('',#116,1.226476348052E1);
#118=CARTESIAN_POINT('',(-2.25E1,8.E-1,0.E0));
#119=LINE('',#118,#117);
#120=DIRECTION('',(0.E0,0.E0,-1.E0));
#121=VECTOR('',#120,1.5E0);
#122=CARTESIAN_POINT('',(-2.25E1,1.306476348052E1,1.5E0));
#123=LINE('',#122,#121);
#124=DIRECTION('',(0.E0,0.E0,-1.E0));
#125=VECTOR('',#124,1.5E0);
#126=CARTESIAN_POINT('',(-2.249981724811E1,1.307523332953E1,1.5E0));
#127=LINE('',#126,#125);
#128=DIRECTION('',(3.489949670250E-2,9.993908270191E-1,0.E0));
#129=VECTOR('',#128,1.114202393941E1);
#130=CARTESIAN_POINT('',(-2.249981724811E1,1.307523332953E1,0.E0));
#131=LINE('',#130,#129);
#132=DIRECTION('',(0.E0,0.E0,1.E0));
#133=VECTOR('',#132,1.5E0);
#134=CARTESIAN_POINT('',(-2.211096622037E1,2.421046984901E1,0.E0));
#135=LINE('',#134,#133);
#136=DIRECTION('',(0.E0,0.E0,-1.E0));
#137=VECTOR('',#136,1.5E0);
#138=CARTESIAN_POINT('',(2.181114897227E1,2.45E1,1.5E0));
#139=LINE('',#138,#137);
#140=DIRECTION('',(0.E0,0.E0,1.E0));
#141=VECTOR('',#140,1.5E0);
#142=CARTESIAN_POINT('',(-2.181114897227E1,2.45E1,0.E0));
#143=LINE('',#142,#141);
#144=DIRECTION('',(0.E0,0.E0,1.E0));
#145=VECTOR('',#144,1.5E0);
#146=CARTESIAN_POINT('',(2.249981724811E1,1.307523332953E1,0.E0));
#147=LINE('',#146,#145);
#148=DIRECTION('',(0.E0,0.E0,-1.E0));
#149=VECTOR('',#148,1.5E0);
#150=CARTESIAN_POINT('',(2.211096622037E1,2.421046984901E1,1.5E0));
#151=LINE('',#150,#149);
#152=DIRECTION('',(3.489949670250E-2,-9.993908270191E-1,0.E0));
#153=VECTOR('',#152,1.114202393942E1);
#154=CARTESIAN_POINT('',(2.211096622037E1,2.421046984901E1,0.E0));
#155=LINE('',#154,#153);
#156=DIRECTION('',(0.E0,0.E0,1.E0));
#157=VECTOR('',#156,1.5E0);
#158=CARTESIAN_POINT('',(2.25E1,8.E-1,0.E0));
#159=LINE('',#158,#157);
#160=DIRECTION('',(0.E0,0.E0,1.E0));
#161=VECTOR('',#160,1.5E0);
#162=CARTESIAN_POINT('',(2.25E1,1.306476348052E1,0.E0));
#163=LINE('',#162,#161);
#164=DIRECTION('',(0.E0,-1.E0,0.E0));
#165=VECTOR('',#164,1.226476348052E1);
#166=CARTESIAN_POINT('',(2.25E1,1.306476348052E1,0.E0));
#167=LINE('',#166,#165);
#168=CARTESIAN_POINT('',(0.E0,1.255E1,1.E0));
#169=DIRECTION('',(0.E0,0.E0,1.E0));
#170=DIRECTION('',(0.E0,1.E0,0.E0));
#171=AXIS2_PLACEMENT_3D('',#168,#169,#170);
#173=DIRECTION('',(0.E0,-7.071067811865E-1,7.071067811865E-1));
#174=VECTOR('',#173,7.071067811865E-1);
#175=CARTESIAN_POINT('',(0.E0,1.105E1,1.E0));
#176=LINE('',#175,#174);
#177=CARTESIAN_POINT('',(0.E0,1.255E1,1.E0));
#178=DIRECTION('',(0.E0,0.E0,-1.E0));
#179=DIRECTION('',(0.E0,1.E0,0.E0));
#180=AXIS2_PLACEMENT_3D('',#177,#178,#179);
#182=DIRECTION('',(0.E0,7.071067811865E-1,7.071067811865E-1));
#183=VECTOR('',#182,7.071067811865E-1);
#184=CARTESIAN_POINT('',(0.E0,1.405E1,1.E0));
#185=LINE('',#184,#183);
#186=CARTESIAN_POINT('',(-2.22E1,5.E-1,0.E0));
#187=CARTESIAN_POINT('',(-2.25E1,8.E-1,0.E0));
#188=VERTEX_POINT('',#186);
#189=VERTEX_POINT('',#187);
#190=CARTESIAN_POINT('',(-2.25E1,8.E-1,1.5E0));
#191=VERTEX_POINT('',#190);
#192=CARTESIAN_POINT('',(-2.22E1,5.E-1,1.5E0));
#193=VERTEX_POINT('',#192);
#194=CARTESIAN_POINT('',(-2.25E1,1.306476348052E1,1.5E0));
#195=CARTESIAN_POINT('',(-2.25E1,1.306476348052E1,0.E0));
#196=VERTEX_POINT('',#194);
#197=VERTEX_POINT('',#195);
#198=CARTESIAN_POINT('',(-2.249981724811E1,1.307523332953E1,0.E0));
#199=VERTEX_POINT('',#198);
#200=CARTESIAN_POINT('',(-2.249981724811E1,1.307523332953E1,1.5E0));
#201=VERTEX_POINT('',#200);
#202=CARTESIAN_POINT('',(-2.181114897227E1,2.45E1,1.5E0));
#203=CARTESIAN_POINT('',(-2.211096622037E1,2.421046984901E1,1.5E0));
#204=VERTEX_POINT('',#202);
#205=VERTEX_POINT('',#203);
#206=CARTESIAN_POINT('',(-2.211096622037E1,2.421046984901E1,0.E0));
#207=VERTEX_POINT('',#206);
#208=CARTESIAN_POINT('',(-2.181114897227E1,2.45E1,0.E0));
#209=VERTEX_POINT('',#208);
#210=CARTESIAN_POINT('',(2.22E1,5.E-1,1.5E0));
#211=CARTESIAN_POINT('',(2.25E1,8.E-1,1.5E0));
#212=VERTEX_POINT('',#210);
#213=VERTEX_POINT('',#211);
#214=CARTESIAN_POINT('',(2.25E1,8.E-1,0.E0));
#215=VERTEX_POINT('',#214);
#216=CARTESIAN_POINT('',(2.22E1,5.E-1,0.E0));
#217=VERTEX_POINT('',#216);
#218=CARTESIAN_POINT('',(2.25E1,1.306476348052E1,0.E0));
#219=CARTESIAN_POINT('',(2.25E1,1.306476348052E1,1.5E0));
#220=VERTEX_POINT('',#218);
#221=VERTEX_POINT('',#219);
#222=CARTESIAN_POINT('',(2.249981724811E1,1.307523332953E1,1.5E0));
#223=VERTEX_POINT('',#222);
#224=CARTESIAN_POINT('',(2.249981724811E1,1.307523332953E1,0.E0));
#225=VERTEX_POINT('',#224);
#226=CARTESIAN_POINT('',(2.181114897227E1,2.45E1,0.E0));
#227=CARTESIAN_POINT('',(2.211096622037E1,2.421046984901E1,0.E0));
#228=VERTEX_POINT('',#226);
#229=VERTEX_POINT('',#227);
#230=CARTESIAN_POINT('',(2.211096622037E1,2.421046984901E1,1.5E0));
#231=VERTEX_POINT('',#230);
#232=CARTESIAN_POINT('',(2.181114897227E1,2.45E1,1.5E0));
#233=VERTEX_POINT('',#232);
#234=CARTESIAN_POINT('',(0.E0,1.405E1,1.E0));
#235=CARTESIAN_POINT('',(0.E0,1.105E1,1.E0));
#236=VERTEX_POINT('',#234);
#237=VERTEX_POINT('',#235);
#238=CARTESIAN_POINT('',(0.E0,1.455E1,1.5E0));
#239=CARTESIAN_POINT('',(0.E0,1.055E1,1.5E0));
#240=VERTEX_POINT('',#238);
#241=VERTEX_POINT('',#239);
#242=CARTESIAN_POINT('',(0.E0,0.E0,0.E0));
#243=DIRECTION('',(0.E0,0.E0,1.E0));
#244=DIRECTION('',(1.E0,0.E0,0.E0));
#245=AXIS2_PLACEMENT_3D('',#242,#243,#244);
#246=PLANE('',#245);
#248=ORIENTED_EDGE('',*,*,#247,.F.);
#250=ORIENTED_EDGE('',*,*,#249,.F.);
#252=ORIENTED_EDGE('',*,*,#251,.T.);
#254=ORIENTED_EDGE('',*,*,#253,.F.);
#256=ORIENTED_EDGE('',*,*,#255,.F.);
#258=ORIENTED_EDGE('',*,*,#257,.T.);
#260=ORIENTED_EDGE('',*,*,#259,.F.);
#262=ORIENTED_EDGE('',*,*,#261,.F.);
#264=ORIENTED_EDGE('',*,*,#263,.T.);
#266=ORIENTED_EDGE('',*,*,#265,.F.);
#268=ORIENTED_EDGE('',*,*,#267,.F.);
#270=ORIENTED_EDGE('',*,*,#269,.T.);
#271=EDGE_LOOP('',(#248,#250,#252,#254,#256,#258,#260,#262,#264,#266,#268,
#270));
#272=FACE_OUTER_BOUND('',#271,.F.);
#273=ADVANCED_FACE('',(#272),#246,.F.);
#274=CARTESIAN_POINT('',(2.22E1,8.E-1,-6.10188E0));
#275=DIRECTION('',(0.E0,0.E0,1.E0));
#276=DIRECTION('',(0.E0,-1.E0,0.E0));
#277=AXIS2_PLACEMENT_3D('',#274,#275,#276);
#278=CYLINDRICAL_SURFACE('',#277,3.E-1);
#280=ORIENTED_EDGE('',*,*,#279,.T.);
#282=ORIENTED_EDGE('',*,*,#281,.F.);
#283=ORIENTED_EDGE('',*,*,#247,.T.);
#285=ORIENTED_EDGE('',*,*,#284,.T.);
#286=EDGE_LOOP('',(#280,#282,#283,#285));
#287=FACE_OUTER_BOUND('',#286,.F.);
#288=ADVANCED_FACE('',(#287),#278,.T.);
#289=CARTESIAN_POINT('',(0.E0,0.E0,1.5E0));
#290=DIRECTION('',(0.E0,0.E0,1.E0));
#291=DIRECTION('',(1.E0,0.E0,0.E0));
#292=AXIS2_PLACEMENT_3D('',#289,#290,#291);
#293=PLANE('',#292);
#294=ORIENTED_EDGE('',*,*,#279,.F.);
#296=ORIENTED_EDGE('',*,*,#295,.F.);
#298=ORIENTED_EDGE('',*,*,#297,.F.);
#300=ORIENTED_EDGE('',*,*,#299,.T.);
#302=ORIENTED_EDGE('',*,*,#301,.T.);
#304=ORIENTED_EDGE('',*,*,#303,.T.);
#306=ORIENTED_EDGE('',*,*,#305,.F.);
#308=ORIENTED_EDGE('',*,*,#307,.F.);
#310=ORIENTED_EDGE('',*,*,#309,.F.);
#312=ORIENTED_EDGE('',*,*,#311,.T.);
#314=ORIENTED_EDGE('',*,*,#313,.T.);
#316=ORIENTED_EDGE('',*,*,#315,.F.);
#317=EDGE_LOOP('',(#294,#296,#298,#300,#302,#304,#306,#308,#310,#312,#314,
#316));
#318=FACE_OUTER_BOUND('',#317,.F.);
#320=ORIENTED_EDGE('',*,*,#319,.T.);
#322=ORIENTED_EDGE('',*,*,#321,.T.);
#323=EDGE_LOOP('',(#320,#322));
#324=FACE_BOUND('',#323,.F.);
#325=ADVANCED_FACE('',(#318,#324),#293,.T.);
#326=CARTESIAN_POINT('',(-3.16E1,5.E-1,0.E0));
#327=DIRECTION('',(0.E0,-1.E0,0.E0));
#328=DIRECTION('',(1.E0,0.E0,0.E0));
#329=AXIS2_PLACEMENT_3D('',#326,#327,#328);
#330=PLANE('',#329);
#331=ORIENTED_EDGE('',*,*,#284,.F.);
#332=ORIENTED_EDGE('',*,*,#269,.F.);
#334=ORIENTED_EDGE('',*,*,#333,.F.);
#335=ORIENTED_EDGE('',*,*,#295,.T.);
#336=EDGE_LOOP('',(#331,#332,#334,#335));
#337=FACE_OUTER_BOUND('',#336,.F.);
#338=ADVANCED_FACE('',(#337),#330,.T.);
#339=CARTESIAN_POINT('',(-2.22E1,8.E-1,5.80188E0));
#340=DIRECTION('',(0.E0,0.E0,-1.E0));
#341=DIRECTION('',(1.184237892934E-14,-1.E0,0.E0));
#342=AXIS2_PLACEMENT_3D('',#339,#340,#341);
#343=CYLINDRICAL_SURFACE('',#342,3.E-1);
#344=ORIENTED_EDGE('',*,*,#267,.T.);
#346=ORIENTED_EDGE('',*,*,#345,.F.);
#347=ORIENTED_EDGE('',*,*,#297,.T.);
#348=ORIENTED_EDGE('',*,*,#333,.T.);
#349=EDGE_LOOP('',(#344,#346,#347,#348));
#350=FACE_OUTER_BOUND('',#349,.F.);
#351=ADVANCED_FACE('',(#350),#343,.T.);
#352=CARTESIAN_POINT('',(-2.25E1,0.E0,-2.13E0));
#353=DIRECTION('',(1.E0,0.E0,0.E0));
#354=DIRECTION('',(0.E0,1.E0,0.E0));
#355=AXIS2_PLACEMENT_3D('',#352,#353,#354);
#356=PLANE('',#355);
#357=ORIENTED_EDGE('',*,*,#345,.T.);
#358=ORIENTED_EDGE('',*,*,#265,.T.);
#360=ORIENTED_EDGE('',*,*,#359,.F.);
#361=ORIENTED_EDGE('',*,*,#299,.F.);
#362=EDGE_LOOP('',(#357,#358,#360,#361));
#363=FACE_OUTER_BOUND('',#362,.F.);
#364=ADVANCED_FACE('',(#363),#356,.F.);
#365=CARTESIAN_POINT('',(-2.22E1,1.306476348052E1,5.80188E0));
#366=DIRECTION('',(0.E0,0.E0,-1.E0));
#367=DIRECTION('',(-1.E0,0.E0,0.E0));
#368=AXIS2_PLACEMENT_3D('',#365,#366,#367);
#369=CYLINDRICAL_SURFACE('',#368,3.E-1);
#370=ORIENTED_EDGE('',*,*,#359,.T.);
#371=ORIENTED_EDGE('',*,*,#263,.F.);
#373=ORIENTED_EDGE('',*,*,#372,.F.);
#374=ORIENTED_EDGE('',*,*,#301,.F.);
#375=EDGE_LOOP('',(#370,#371,#373,#374));
#376=FACE_OUTER_BOUND('',#375,.F.);
#377=ADVANCED_FACE('',(#376),#369,.T.);
#378=CARTESIAN_POINT('',(-2.25E1,1.307E1,-2.13E0));
#379=DIRECTION('',(9.993908270191E-1,-3.489949670250E-2,0.E0));
#380=DIRECTION('',(3.489949670250E-2,9.993908270191E-1,0.E0));
#381=AXIS2_PLACEMENT_3D('',#378,#379,#380);
#382=PLANE('',#381);
#383=ORIENTED_EDGE('',*,*,#372,.T.);
#384=ORIENTED_EDGE('',*,*,#261,.T.);
#386=ORIENTED_EDGE('',*,*,#385,.T.);
#387=ORIENTED_EDGE('',*,*,#303,.F.);
#388=EDGE_LOOP('',(#383,#384,#386,#387));
#389=FACE_OUTER_BOUND('',#388,.F.);
#390=ADVANCED_FACE('',(#389),#382,.F.);
#391=CARTESIAN_POINT('',(-2.181114897227E1,2.42E1,-6.10188E0));
#392=DIRECTION('',(0.E0,0.E0,1.E0));
#393=DIRECTION('',(-1.184237892933E-14,1.E0,0.E0));
#394=AXIS2_PLACEMENT_3D('',#391,#392,#393);
#395=CYLINDRICAL_SURFACE('',#394,3.E-1);
#396=ORIENTED_EDGE('',*,*,#305,.T.);
#397=ORIENTED_EDGE('',*,*,#385,.F.);
#398=ORIENTED_EDGE('',*,*,#259,.T.);
#400=ORIENTED_EDGE('',*,*,#399,.T.);
#401=EDGE_LOOP('',(#396,#397,#398,#400));
#402=FACE_OUTER_BOUND('',#401,.F.);
#403=ADVANCED_FACE('',(#402),#395,.T.);
#404=CARTESIAN_POINT('',(3.120085560471E1,2.45E1,0.E0));
#405=DIRECTION('',(0.E0,1.E0,0.E0));
#406=DIRECTION('',(-1.E0,0.E0,0.E0));
#407=AXIS2_PLACEMENT_3D('',#404,#405,#406);
#408=PLANE('',#407);
#410=ORIENTED_EDGE('',*,*,#409,.F.);
#411=ORIENTED_EDGE('',*,*,#307,.T.);
#412=ORIENTED_EDGE('',*,*,#399,.F.);
#413=ORIENTED_EDGE('',*,*,#257,.F.);
#414=EDGE_LOOP('',(#410,#411,#412,#413));
#415=FACE_OUTER_BOUND('',#414,.F.);
#416=ADVANCED_FACE('',(#415),#408,.T.);
#417=CARTESIAN_POINT('',(2.181114897227E1,2.42E1,5.80188E0));
#418=DIRECTION('',(0.E0,0.E0,-1.E0));
#419=DIRECTION('',(0.E0,1.E0,0.E0));
#420=AXIS2_PLACEMENT_3D('',#417,#418,#419);
#421=CYLINDRICAL_SURFACE('',#420,3.E-1);
#422=ORIENTED_EDGE('',*,*,#255,.T.);
#424=ORIENTED_EDGE('',*,*,#423,.F.);
#425=ORIENTED_EDGE('',*,*,#309,.T.);
#426=ORIENTED_EDGE('',*,*,#409,.T.);
#427=EDGE_LOOP('',(#422,#424,#425,#426));
#428=FACE_OUTER_BOUND('',#427,.F.);
#429=ADVANCED_FACE('',(#428),#421,.T.);
#430=CARTESIAN_POINT('',(2.210085560471E1,2.45E1,-2.13E0));
#431=DIRECTION('',(-9.993908270191E-1,-3.489949670250E-2,0.E0));
#432=DIRECTION('',(3.489949670250E-2,-9.993908270191E-1,0.E0));
#433=AXIS2_PLACEMENT_3D('',#430,#431,#432);
#434=PLANE('',#433);
#436=ORIENTED_EDGE('',*,*,#435,.T.);
#437=ORIENTED_EDGE('',*,*,#311,.F.);
#438=ORIENTED_EDGE('',*,*,#423,.T.);
#439=ORIENTED_EDGE('',*,*,#253,.T.);
#440=EDGE_LOOP('',(#436,#437,#438,#439));
#441=FACE_OUTER_BOUND('',#440,.F.);
#442=ADVANCED_FACE('',(#441),#434,.F.);
#443=CARTESIAN_POINT('',(2.22E1,1.306476348052E1,-6.10188E0));
#444=DIRECTION('',(0.E0,0.E0,1.E0));
#445=DIRECTION('',(1.E0,0.E0,0.E0));
#446=AXIS2_PLACEMENT_3D('',#443,#444,#445);
#447=CYLINDRICAL_SURFACE('',#446,3.E-1);
#449=ORIENTED_EDGE('',*,*,#448,.T.);
#450=ORIENTED_EDGE('',*,*,#313,.F.);
#451=ORIENTED_EDGE('',*,*,#435,.F.);
#452=ORIENTED_EDGE('',*,*,#251,.F.);
#453=EDGE_LOOP('',(#449,#450,#451,#452));
#454=FACE_OUTER_BOUND('',#453,.F.);
#455=ADVANCED_FACE('',(#454),#447,.T.);
#456=CARTESIAN_POINT('',(2.25E1,1.307E1,-2.13E0));
#457=DIRECTION('',(-1.E0,0.E0,0.E0));
#458=DIRECTION('',(0.E0,-1.E0,0.E0));
#459=AXIS2_PLACEMENT_3D('',#456,#457,#458);
#460=PLANE('',#459);
#461=ORIENTED_EDGE('',*,*,#281,.T.);
#462=ORIENTED_EDGE('',*,*,#315,.T.);
#463=ORIENTED_EDGE('',*,*,#448,.F.);
#464=ORIENTED_EDGE('',*,*,#249,.T.);
#465=EDGE_LOOP('',(#461,#462,#463,#464));
#466=FACE_OUTER_BOUND('',#465,.F.);
#467=ADVANCED_FACE('',(#466),#460,.F.);
#468=CARTESIAN_POINT('',(0.E0,1.255E1,1.25E0));
#469=DIRECTION('',(0.E0,0.E0,1.E0));
#470=DIRECTION('',(0.E0,1.E0,0.E0));
#471=AXIS2_PLACEMENT_3D('',#468,#469,#470);
#472=CONICAL_SURFACE('',#471,1.75E0,4.5E1);
#473=ORIENTED_EDGE('',*,*,#319,.F.);
#475=ORIENTED_EDGE('',*,*,#474,.F.);
#477=ORIENTED_EDGE('',*,*,#476,.T.);
#479=ORIENTED_EDGE('',*,*,#478,.T.);
#480=EDGE_LOOP('',(#473,#475,#477,#479));
#481=FACE_OUTER_BOUND('',#480,.F.);
#482=ADVANCED_FACE('',(#481),#472,.F.);
#483=CARTESIAN_POINT('',(0.E0,1.255E1,1.25E0));
#484=DIRECTION('',(0.E0,0.E0,1.E0));
#485=DIRECTION('',(0.E0,1.E0,0.E0));
#486=AXIS2_PLACEMENT_3D('',#483,#484,#485);
#487=CONICAL_SURFACE('',#486,1.75E0,4.5E1);
#488=ORIENTED_EDGE('',*,*,#321,.F.);
#489=ORIENTED_EDGE('',*,*,#478,.F.);
#491=ORIENTED_EDGE('',*,*,#490,.F.);
#492=ORIENTED_EDGE('',*,*,#474,.T.);
#493=EDGE_LOOP('',(#488,#489,#491,#492));
#494=FACE_OUTER_BOUND('',#493,.F.);
#495=ADVANCED_FACE('',(#494),#487,.F.);
#496=CARTESIAN_POINT('',(0.E0,1.255E1,1.E0));
#497=DIRECTION('',(0.E0,0.E0,1.E0));
#498=DIRECTION('',(0.E0,1.E0,0.E0));
#499=AXIS2_PLACEMENT_3D('',#496,#497,#498);
#500=PLANE('',#499);
#501=ORIENTED_EDGE('',*,*,#490,.T.);
#502=ORIENTED_EDGE('',*,*,#476,.F.);
#503=EDGE_LOOP('',(#501,#502));
#504=FACE_OUTER_BOUND('',#503,.F.);
#505=ADVANCED_FACE('',(#504),#500,.T.);
#506=CLOSED_SHELL('',(#273,#288,#325,#338,#351,#364,#377,#390,#403,#416,#429,
#442,#455,#467,#482,#495,#505));
#507=MANIFOLD_SOLID_BREP('',#506);
#509=DIMENSIONAL_EXPONENTS(0.E0,0.E0,0.E0,0.E0,0.E0,0.E0,0.E0);
#511=PLANE_ANGLE_MEASURE_WITH_UNIT(PLANE_ANGLE_MEASURE(1.745329251994E-2),#510);
#512=(CONVERSION_BASED_UNIT('DEGREE',#511)NAMED_UNIT(*)PLANE_ANGLE_UNIT());
#514=UNCERTAINTY_MEASURE_WITH_UNIT(LENGTH_MEASURE(1.2E-3),#508,'closure',
'Maximum model space distance between geometric entities at asserted connectivities');
#515=(GEOMETRIC_REPRESENTATION_CONTEXT(3)GLOBAL_UNCERTAINTY_ASSIGNED_CONTEXT((
#514))GLOBAL_UNIT_ASSIGNED_CONTEXT((#508,#512,#513))REPRESENTATION_CONTEXT
('ID1','3'));
#517=APPLICATION_CONTEXT(
'CONFIGURATION CONTROLLED 3D DESIGNS OF MECHANICAL PARTS AND ASSEMBLIES');
#518=APPLICATION_PROTOCOL_DEFINITION('international standard',
'config_control_design',1994,#517);
#519=DESIGN_CONTEXT('',#517,'design');
#520=MECHANICAL_CONTEXT('',#517,'mechanical');
#521=PRODUCT('PRK1-5_2A_AP','PRK1-5_2A_AP','NOT SPECIFIED',(#520));
#522=PRODUCT_DEFINITION_FORMATION_WITH_SPECIFIED_SOURCE('184','LAST_VERSION',
#521,.MADE.);
#526=PRODUCT_CATEGORY('part','');
#527=PRODUCT_RELATED_PRODUCT_CATEGORY('detail','',(#521));
#528=PRODUCT_CATEGORY_RELATIONSHIP('','',#526,#527);
#529=SECURITY_CLASSIFICATION_LEVEL('unclassified');
#530=SECURITY_CLASSIFICATION('','',#529);
#531=CC_DESIGN_SECURITY_CLASSIFICATION(#530,(#522));
#532=APPROVAL_STATUS('approved');
#533=APPROVAL(#532,'');
#534=CC_DESIGN_APPROVAL(#533,(#530,#522,#523));
#535=CALENDAR_DATE(119,19,7);
#536=COORDINATED_UNIVERSAL_TIME_OFFSET(2,0,.AHEAD.);
#537=LOCAL_TIME(9,13,2.2E1,#536);
#538=DATE_AND_TIME(#535,#537);
#539=APPROVAL_DATE_TIME(#538,#533);
#540=DATE_TIME_ROLE('creation_date');
#541=CC_DESIGN_DATE_AND_TIME_ASSIGNMENT(#538,#540,(#523));
#542=DATE_TIME_ROLE('classification_date');
#543=CC_DESIGN_DATE_AND_TIME_ASSIGNMENT(#538,#542,(#530));
#544=PERSON('UNSPECIFIED','UNSPECIFIED',$,$,$,$);
#545=ORGANIZATION('UNSPECIFIED','UNSPECIFIED','UNSPECIFIED');
#546=PERSON_AND_ORGANIZATION(#544,#545);
#547=APPROVAL_ROLE('approver');
#548=APPROVAL_PERSON_ORGANIZATION(#546,#533,#547);
#549=PERSON_AND_ORGANIZATION_ROLE('creator');
#550=CC_DESIGN_PERSON_AND_ORGANIZATION_ASSIGNMENT(#546,#549,(#522,#523));
#551=PERSON_AND_ORGANIZATION_ROLE('design_supplier');
#552=CC_DESIGN_PERSON_AND_ORGANIZATION_ASSIGNMENT(#546,#551,(#522));
#553=PERSON_AND_ORGANIZATION_ROLE('classification_officer');
#554=CC_DESIGN_PERSON_AND_ORGANIZATION_ASSIGNMENT(#546,#553,(#530));
#555=PERSON_AND_ORGANIZATION_ROLE('design_owner');
#556=CC_DESIGN_PERSON_AND_ORGANIZATION_ASSIGNMENT(#546,#555,(#521));
#6=CIRCLE('',#5,3.E-1);
#11=CIRCLE('',#10,3.E-1);
#16=CIRCLE('',#15,3.E-1);
#25=CIRCLE('',#24,3.E-1);
#30=CIRCLE('',#29,3.E-1);
#35=CIRCLE('',#34,3.E-1);
#44=CIRCLE('',#43,3.E-1);
#53=CIRCLE('',#52,3.E-1);
#62=CIRCLE('',#61,3.E-1);
#71=CIRCLE('',#70,3.E-1);
#80=CIRCLE('',#79,3.E-1);
#89=CIRCLE('',#88,3.E-1);
#98=CIRCLE('',#97,2.E0);
#103=CIRCLE('',#102,2.E0);
#172=CIRCLE('',#171,1.5E0);
#181=CIRCLE('',#180,1.5E0);
#247=EDGE_CURVE('',#215,#217,#6,.T.);
#249=EDGE_CURVE('',#220,#215,#167,.T.);
#251=EDGE_CURVE('',#220,#225,#11,.T.);
#253=EDGE_CURVE('',#229,#225,#155,.T.);
#255=EDGE_CURVE('',#228,#229,#16,.T.);
#257=EDGE_CURVE('',#228,#209,#20,.T.);
#259=EDGE_CURVE('',#207,#209,#25,.T.);
#261=EDGE_CURVE('',#199,#207,#131,.T.);
#263=EDGE_CURVE('',#199,#197,#30,.T.);
#265=EDGE_CURVE('',#189,#197,#119,.T.);
#267=EDGE_CURVE('',#188,#189,#35,.T.);
#269=EDGE_CURVE('',#188,#217,#39,.T.);
#279=EDGE_CURVE('',#212,#213,#44,.T.);
#281=EDGE_CURVE('',#215,#213,#159,.T.);
#284=EDGE_CURVE('',#217,#212,#107,.T.);
#295=EDGE_CURVE('',#193,#212,#48,.T.);
#297=EDGE_CURVE('',#191,#193,#53,.T.);
#299=EDGE_CURVE('',#191,#196,#57,.T.);
#301=EDGE_CURVE('',#196,#201,#62,.T.);
#303=EDGE_CURVE('',#201,#205,#66,.T.);
#305=EDGE_CURVE('',#204,#205,#71,.T.);
#307=EDGE_CURVE('',#233,#204,#75,.T.);
#309=EDGE_CURVE('',#231,#233,#80,.T.);
#311=EDGE_CURVE('',#231,#223,#84,.T.);
#313=EDGE_CURVE('',#223,#221,#89,.T.);
#315=EDGE_CURVE('',#213,#221,#93,.T.);
#319=EDGE_CURVE('',#240,#241,#98,.T.);
#321=EDGE_CURVE('',#241,#240,#103,.T.);
#333=EDGE_CURVE('',#193,#188,#111,.T.);
#345=EDGE_CURVE('',#191,#189,#115,.T.);
#359=EDGE_CURVE('',#196,#197,#123,.T.);
#372=EDGE_CURVE('',#201,#199,#127,.T.);
#385=EDGE_CURVE('',#207,#205,#135,.T.);
#399=EDGE_CURVE('',#209,#204,#143,.T.);
#409=EDGE_CURVE('',#233,#228,#139,.T.);
#423=EDGE_CURVE('',#231,#229,#151,.T.);
#435=EDGE_CURVE('',#225,#223,#147,.T.);
#448=EDGE_CURVE('',#220,#221,#163,.T.);
#474=EDGE_CURVE('',#236,#240,#185,.T.);
#476=EDGE_CURVE('',#236,#237,#172,.T.);
#478=EDGE_CURVE('',#237,#241,#176,.T.);
#490=EDGE_CURVE('',#236,#237,#181,.T.);
#508=(LENGTH_UNIT()NAMED_UNIT(*)SI_UNIT(.MILLI.,.METRE.));
#510=(NAMED_UNIT(*)PLANE_ANGLE_UNIT()SI_UNIT($,.RADIAN.));
#513=(NAMED_UNIT(*)SI_UNIT($,.STERADIAN.)SOLID_ANGLE_UNIT());
#516=ADVANCED_BREP_SHAPE_REPRESENTATION('',(#507),#515);
#523=PRODUCT_DEFINITION('design','',#522,#519);
#524=PRODUCT_DEFINITION_SHAPE('','SHAPE FOR PRK1-5_2A_AP.',#523);
#525=SHAPE_DEFINITION_REPRESENTATION(#524,#516);
ENDSEC;
END-ISO-10303-21;
