ISO-10303-21;
HEADER;
/* Generated by software containing ST-Developer
 * from STEP Tools, Inc. (www.steptools.com) 
 */
/* OPTION: using custom schema-name function */

FILE_DESCRIPTION(
/* description */ (''),
/* implementation_level */ '2;1');

FILE_NAME(
/* name */ '2046.2 AP SI-1.stp',
/* time_stamp */ '2012-01-18T10:31:53+01:00',
/* author */ (''),
/* organization */ (''),
/* preprocessor_version */ 'ST-DEVELOPER v11',
/* originating_system */ 'SIEMENS UGS NX 6.0',
/* authorisation */ '');

FILE_SCHEMA (('CONFIG_CONTROL_DESIGN'));
ENDSEC;

DATA;
#10=SHAPE_REPRESENTATION_RELATIONSHIP('None',
'relationship between AP_STK1_info-None and AP_STK1_info-None',#94,#11);
#11=ADVANCED_BREP_SHAPE_REPRESENTATION('AP_STK1_info-None',(#95),#315);
#12=CC_DESIGN_APPROVAL(#24,(#82));
#13=CC_DESIGN_APPROVAL(#25,(#84));
#14=CC_DESIGN_APPROVAL(#26,(#31));
#15=APPROVAL_PERSON_ORGANIZATION(#69,#24,#18);
#16=APPROVAL_PERSON_ORGANIZATION(#70,#25,#19);
#17=APPROVAL_PERSON_ORGANIZATION(#71,#26,#20);
#18=APPROVAL_ROLE('approver');
#19=APPROVAL_ROLE('approver');
#20=APPROVAL_ROLE('approver');
#21=APPROVAL_DATE_TIME(#39,#24);
#22=APPROVAL_DATE_TIME(#40,#25);
#23=APPROVAL_DATE_TIME(#41,#26);
#24=APPROVAL(#27,' ');
#25=APPROVAL(#28,' ');
#26=APPROVAL(#29,' ');
#27=APPROVAL_STATUS('not_yet_approved');
#28=APPROVAL_STATUS('not_yet_approved');
#29=APPROVAL_STATUS('not_yet_approved');
#30=CC_DESIGN_SECURITY_CLASSIFICATION(#31,(#84));
#31=SECURITY_CLASSIFICATION(' ',' ',#32);
#32=SECURITY_CLASSIFICATION_LEVEL('confidential');
#33=CC_DESIGN_DATE_AND_TIME_ASSIGNMENT(#37,#35,(#82));
#34=CC_DESIGN_DATE_AND_TIME_ASSIGNMENT(#38,#36,(#31));
#35=DATE_TIME_ROLE('creation_date');
#36=DATE_TIME_ROLE('classification_date');
#37=DATE_AND_TIME(#52,#42);
#38=DATE_AND_TIME(#53,#43);
#39=DATE_AND_TIME(#54,#44);
#40=DATE_AND_TIME(#55,#45);
#41=DATE_AND_TIME(#56,#46);
#42=LOCAL_TIME(0,0,0.,#47);
#43=LOCAL_TIME(0,0,0.,#48);
#44=LOCAL_TIME(0,0,0.,#49);
#45=LOCAL_TIME(0,0,0.,#50);
#46=LOCAL_TIME(0,0,0.,#51);
#47=COORDINATED_UNIVERSAL_TIME_OFFSET(0,0,.BEHIND.);
#48=COORDINATED_UNIVERSAL_TIME_OFFSET(0,0,.BEHIND.);
#49=COORDINATED_UNIVERSAL_TIME_OFFSET(0,0,.BEHIND.);
#50=COORDINATED_UNIVERSAL_TIME_OFFSET(0,0,.BEHIND.);
#51=COORDINATED_UNIVERSAL_TIME_OFFSET(0,0,.BEHIND.);
#52=CALENDAR_DATE(0,1,1);
#53=CALENDAR_DATE(0,1,1);
#54=CALENDAR_DATE(0,1,1);
#55=CALENDAR_DATE(0,1,1);
#56=CALENDAR_DATE(0,1,1);
#57=CC_DESIGN_PERSON_AND_ORGANIZATION_ASSIGNMENT(#65,#61,(#82,#84));
#58=CC_DESIGN_PERSON_AND_ORGANIZATION_ASSIGNMENT(#66,#62,(#86));
#59=CC_DESIGN_PERSON_AND_ORGANIZATION_ASSIGNMENT(#67,#63,(#84));
#60=CC_DESIGN_PERSON_AND_ORGANIZATION_ASSIGNMENT(#68,#64,(#31));
#61=PERSON_AND_ORGANIZATION_ROLE('creator');
#62=PERSON_AND_ORGANIZATION_ROLE('design_owner');
#63=PERSON_AND_ORGANIZATION_ROLE('design_supplier');
#64=PERSON_AND_ORGANIZATION_ROLE('classification_officer');
#65=PERSON_AND_ORGANIZATION(#79,#72);
#66=PERSON_AND_ORGANIZATION(#79,#73);
#67=PERSON_AND_ORGANIZATION(#79,#74);
#68=PERSON_AND_ORGANIZATION(#79,#75);
#69=PERSON_AND_ORGANIZATION(#79,#76);
#70=PERSON_AND_ORGANIZATION(#79,#77);
#71=PERSON_AND_ORGANIZATION(#79,#78);
#72=ORGANIZATION(' ',' ',' ');
#73=ORGANIZATION(' ',' ',' ');
#74=ORGANIZATION(' ',' ',' ');
#75=ORGANIZATION(' ',' ',' ');
#76=ORGANIZATION(' ',' ',' ');
#77=ORGANIZATION(' ',' ',' ');
#78=ORGANIZATION(' ',' ',' ');
#79=PERSON(' ',' ',' ',(' '),$,$);
#80=SHAPE_DEFINITION_REPRESENTATION(#81,#94);
#81=PRODUCT_DEFINITION_SHAPE('','',#82);
#82=PRODUCT_DEFINITION(' ','',#84,#83);
#83=DESIGN_CONTEXT('',#93,'design');
#84=PRODUCT_DEFINITION_FORMATION_WITH_SPECIFIED_SOURCE(' ',' ',#86,.NOT_KNOWN.);
#85=PRODUCT_RELATED_PRODUCT_CATEGORY('detail','',(#86));
#86=PRODUCT('AP_STK1_info','AP_STK1_info',' ',(#91));
#87=PRODUCT_CATEGORY_RELATIONSHIP(' ',' ',#89,#90);
#88=PRODUCT_CATEGORY_RELATIONSHIP('','',#90,#85);
#89=PRODUCT_CATEGORY('part',' ');
#90=PRODUCT_CATEGORY(' ','');
#91=MECHANICAL_CONTEXT(' ',#93,'mechanical');
#92=APPLICATION_PROTOCOL_DEFINITION('international standard',
'config_control_design',1994,#93);
#93=APPLICATION_CONTEXT(
'configuration controlled 3D designs of mechanical parts and assemblies');
#94=SHAPE_REPRESENTATION('AP_STK1_info-None',(#231),#315);
#95=MANIFOLD_SOLID_BREP('',#96);
#96=CLOSED_SHELL('',(#97,#98,#99,#100,#101,#102,#103,#104));
#97=ADVANCED_FACE('',(#113),#105,.F.);
#98=ADVANCED_FACE('',(#114),#106,.F.);
#99=ADVANCED_FACE('',(#115),#107,.F.);
#100=ADVANCED_FACE('',(#116),#108,.F.);
#101=ADVANCED_FACE('',(#117),#109,.F.);
#102=ADVANCED_FACE('',(#118),#110,.F.);
#103=ADVANCED_FACE('',(#119),#111,.T.);
#104=ADVANCED_FACE('',(#120),#112,.F.);
#105=PLANE('',#232);
#106=PLANE('',#233);
#107=PLANE('',#234);
#108=PLANE('',#235);
#109=PLANE('',#236);
#110=PLANE('',#237);
#111=PLANE('',#238);
#112=PLANE('',#239);
#113=FACE_OUTER_BOUND('',#121,.T.);
#114=FACE_OUTER_BOUND('',#122,.T.);
#115=FACE_OUTER_BOUND('',#123,.T.);
#116=FACE_OUTER_BOUND('',#124,.T.);
#117=FACE_OUTER_BOUND('',#125,.T.);
#118=FACE_OUTER_BOUND('',#126,.T.);
#119=FACE_OUTER_BOUND('',#127,.T.);
#120=FACE_OUTER_BOUND('',#128,.T.);
#121=EDGE_LOOP('',(#129,#130,#131,#132));
#122=EDGE_LOOP('',(#133,#134,#135,#136));
#123=EDGE_LOOP('',(#137,#138,#139,#140));
#124=EDGE_LOOP('',(#141,#142,#143,#144));
#125=EDGE_LOOP('',(#145,#146,#147,#148));
#126=EDGE_LOOP('',(#149,#150,#151,#152));
#127=EDGE_LOOP('',(#153,#154,#155,#156,#157,#158));
#128=EDGE_LOOP('',(#159,#160,#161,#162,#163,#164));
#129=ORIENTED_EDGE('',*,*,#177,.T.);
#130=ORIENTED_EDGE('',*,*,#178,.F.);
#131=ORIENTED_EDGE('',*,*,#179,.F.);
#132=ORIENTED_EDGE('',*,*,#180,.T.);
#133=ORIENTED_EDGE('',*,*,#181,.T.);
#134=ORIENTED_EDGE('',*,*,#182,.F.);
#135=ORIENTED_EDGE('',*,*,#183,.F.);
#136=ORIENTED_EDGE('',*,*,#178,.T.);
#137=ORIENTED_EDGE('',*,*,#184,.T.);
#138=ORIENTED_EDGE('',*,*,#185,.F.);
#139=ORIENTED_EDGE('',*,*,#186,.F.);
#140=ORIENTED_EDGE('',*,*,#182,.T.);
#141=ORIENTED_EDGE('',*,*,#187,.T.);
#142=ORIENTED_EDGE('',*,*,#188,.F.);
#143=ORIENTED_EDGE('',*,*,#189,.F.);
#144=ORIENTED_EDGE('',*,*,#185,.T.);
#145=ORIENTED_EDGE('',*,*,#190,.T.);
#146=ORIENTED_EDGE('',*,*,#191,.F.);
#147=ORIENTED_EDGE('',*,*,#192,.F.);
#148=ORIENTED_EDGE('',*,*,#188,.T.);
#149=ORIENTED_EDGE('',*,*,#193,.T.);
#150=ORIENTED_EDGE('',*,*,#180,.F.);
#151=ORIENTED_EDGE('',*,*,#194,.F.);
#152=ORIENTED_EDGE('',*,*,#191,.T.);
#153=ORIENTED_EDGE('',*,*,#179,.T.);
#154=ORIENTED_EDGE('',*,*,#183,.T.);
#155=ORIENTED_EDGE('',*,*,#186,.T.);
#156=ORIENTED_EDGE('',*,*,#189,.T.);
#157=ORIENTED_EDGE('',*,*,#192,.T.);
#158=ORIENTED_EDGE('',*,*,#194,.T.);
#159=ORIENTED_EDGE('',*,*,#177,.F.);
#160=ORIENTED_EDGE('',*,*,#193,.F.);
#161=ORIENTED_EDGE('',*,*,#190,.F.);
#162=ORIENTED_EDGE('',*,*,#187,.F.);
#163=ORIENTED_EDGE('',*,*,#184,.F.);
#164=ORIENTED_EDGE('',*,*,#181,.F.);
#165=VERTEX_POINT('',#278);
#166=VERTEX_POINT('',#279);
#167=VERTEX_POINT('',#281);
#168=VERTEX_POINT('',#283);
#169=VERTEX_POINT('',#287);
#170=VERTEX_POINT('',#289);
#171=VERTEX_POINT('',#293);
#172=VERTEX_POINT('',#295);
#173=VERTEX_POINT('',#299);
#174=VERTEX_POINT('',#301);
#175=VERTEX_POINT('',#305);
#176=VERTEX_POINT('',#307);
#177=EDGE_CURVE('',#165,#166,#195,.T.);
#178=EDGE_CURVE('',#167,#166,#196,.T.);
#179=EDGE_CURVE('',#168,#167,#197,.T.);
#180=EDGE_CURVE('',#168,#165,#198,.T.);
#181=EDGE_CURVE('',#166,#169,#199,.T.);
#182=EDGE_CURVE('',#170,#169,#200,.T.);
#183=EDGE_CURVE('',#167,#170,#201,.T.);
#184=EDGE_CURVE('',#169,#171,#202,.T.);
#185=EDGE_CURVE('',#172,#171,#203,.T.);
#186=EDGE_CURVE('',#170,#172,#204,.T.);
#187=EDGE_CURVE('',#171,#173,#205,.T.);
#188=EDGE_CURVE('',#174,#173,#206,.T.);
#189=EDGE_CURVE('',#172,#174,#207,.T.);
#190=EDGE_CURVE('',#173,#175,#208,.T.);
#191=EDGE_CURVE('',#176,#175,#209,.T.);
#192=EDGE_CURVE('',#174,#176,#210,.T.);
#193=EDGE_CURVE('',#175,#165,#211,.T.);
#194=EDGE_CURVE('',#176,#168,#212,.T.);
#195=LINE('',#277,#213);
#196=LINE('',#280,#214);
#197=LINE('',#282,#215);
#198=LINE('',#284,#216);
#199=LINE('',#286,#217);
#200=LINE('',#288,#218);
#201=LINE('',#290,#219);
#202=LINE('',#292,#220);
#203=LINE('',#294,#221);
#204=LINE('',#296,#222);
#205=LINE('',#298,#223);
#206=LINE('',#300,#224);
#207=LINE('',#302,#225);
#208=LINE('',#304,#226);
#209=LINE('',#306,#227);
#210=LINE('',#308,#228);
#211=LINE('',#310,#229);
#212=LINE('',#311,#230);
#213=VECTOR('',#242,1.);
#214=VECTOR('',#243,1.);
#215=VECTOR('',#244,1.);
#216=VECTOR('',#245,1.);
#217=VECTOR('',#248,1.);
#218=VECTOR('',#249,1.);
#219=VECTOR('',#250,1.);
#220=VECTOR('',#253,1.);
#221=VECTOR('',#254,1.);
#222=VECTOR('',#255,1.);
#223=VECTOR('',#258,1.);
#224=VECTOR('',#259,1.);
#225=VECTOR('',#260,1.);
#226=VECTOR('',#263,1.);
#227=VECTOR('',#264,1.);
#228=VECTOR('',#265,1.);
#229=VECTOR('',#268,1.);
#230=VECTOR('',#269,1.);
#231=AXIS2_PLACEMENT_3D('',#276,#240,#241);
#232=AXIS2_PLACEMENT_3D('',#285,#246,#247);
#233=AXIS2_PLACEMENT_3D('',#291,#251,#252);
#234=AXIS2_PLACEMENT_3D('',#297,#256,#257);
#235=AXIS2_PLACEMENT_3D('',#303,#261,#262);
#236=AXIS2_PLACEMENT_3D('',#309,#266,#267);
#237=AXIS2_PLACEMENT_3D('',#312,#270,#271);
#238=AXIS2_PLACEMENT_3D('',#313,#272,#273);
#239=AXIS2_PLACEMENT_3D('',#314,#274,#275);
#240=DIRECTION('',(0.,0.,1.));
#241=DIRECTION('',(1.,0.,0.));
#242=DIRECTION('',(1.,0.,0.));
#243=DIRECTION('',(0.,0.,-1.));
#244=DIRECTION('',(1.,0.,0.));
#245=DIRECTION('',(0.,0.,-1.));
#246=DIRECTION('',(0.,1.,0.));
#247=DIRECTION('',(0.,0.,1.));
#248=DIRECTION('',(0.,1.,0.));
#249=DIRECTION('',(0.,0.,-1.));
#250=DIRECTION('',(0.,1.,0.));
#251=DIRECTION('',(-1.,0.,0.));
#252=DIRECTION('',(0.,0.,1.));
#253=DIRECTION('',(-0.707106781186548,0.707106781186547,0.));
#254=DIRECTION('',(0.,0.,-1.));
#255=DIRECTION('',(-0.707106781186548,0.707106781186547,0.));
#256=DIRECTION('',(-0.707106781186547,-0.707106781186548,0.));
#257=DIRECTION('',(0.707106781186548,-0.707106781186547,0.));
#258=DIRECTION('',(-1.,0.,0.));
#259=DIRECTION('',(0.,0.,-1.));
#260=DIRECTION('',(-1.,0.,0.));
#261=DIRECTION('',(0.,-1.,0.));
#262=DIRECTION('',(0.,0.,-1.));
#263=DIRECTION('',(-0.707106781186547,-0.707106781186548,0.));
#264=DIRECTION('',(0.,0.,-1.));
#265=DIRECTION('',(-0.707106781186547,-0.707106781186548,0.));
#266=DIRECTION('',(0.707106781186548,-0.707106781186547,0.));
#267=DIRECTION('',(0.707106781186547,0.707106781186548,0.));
#268=DIRECTION('',(0.,-1.,0.));
#269=DIRECTION('',(0.,-1.,0.));
#270=DIRECTION('',(1.,0.,0.));
#271=DIRECTION('',(0.,0.,-1.));
#272=DIRECTION('',(0.,0.,1.));
#273=DIRECTION('',(1.,0.,0.));
#274=DIRECTION('',(0.,0.,1.));
#275=DIRECTION('',(1.,0.,0.));
#276=CARTESIAN_POINT('',(0.,0.,0.));
#277=CARTESIAN_POINT('',(-26.25,0.,-1.5));
#278=CARTESIAN_POINT('',(-26.25,0.,-1.5));
#279=CARTESIAN_POINT('',(26.25,0.,-1.5));
#280=CARTESIAN_POINT('',(26.25,0.,0.));
#281=CARTESIAN_POINT('',(26.25,0.,0.));
#282=CARTESIAN_POINT('',(-26.25,0.,0.));
#283=CARTESIAN_POINT('',(-26.25,0.,0.));
#284=CARTESIAN_POINT('',(-26.25,0.,0.));
#285=CARTESIAN_POINT('',(-26.25,0.,0.));
#286=CARTESIAN_POINT('',(26.25,0.,-1.5));
#287=CARTESIAN_POINT('',(26.25,18.75,-1.5));
#288=CARTESIAN_POINT('',(26.25,18.75,0.));
#289=CARTESIAN_POINT('',(26.25,18.75,0.));
#290=CARTESIAN_POINT('',(26.25,0.,0.));
#291=CARTESIAN_POINT('',(26.25,0.,0.));
#292=CARTESIAN_POINT('',(26.25,18.75,-1.5));
#293=CARTESIAN_POINT('',(22.25,22.75,-1.5));
#294=CARTESIAN_POINT('',(22.25,22.75,0.));
#295=CARTESIAN_POINT('',(22.25,22.75,0.));
#296=CARTESIAN_POINT('',(26.25,18.75,0.));
#297=CARTESIAN_POINT('',(26.25,18.75,0.));
#298=CARTESIAN_POINT('',(22.25,22.75,-1.5));
#299=CARTESIAN_POINT('',(-22.25,22.75,-1.5));
#300=CARTESIAN_POINT('',(-22.25,22.75,0.));
#301=CARTESIAN_POINT('',(-22.25,22.75,0.));
#302=CARTESIAN_POINT('',(22.25,22.75,0.));
#303=CARTESIAN_POINT('',(22.25,22.75,0.));
#304=CARTESIAN_POINT('',(-22.25,22.75,-1.5));
#305=CARTESIAN_POINT('',(-26.25,18.75,-1.5));
#306=CARTESIAN_POINT('',(-26.25,18.75,0.));
#307=CARTESIAN_POINT('',(-26.25,18.75,0.));
#308=CARTESIAN_POINT('',(-22.25,22.75,0.));
#309=CARTESIAN_POINT('',(-22.25,22.75,0.));
#310=CARTESIAN_POINT('',(-26.25,18.75,-1.5));
#311=CARTESIAN_POINT('',(-26.25,18.75,0.));
#312=CARTESIAN_POINT('',(-26.25,18.75,0.));
#313=CARTESIAN_POINT('',(26.25,0.,0.));
#314=CARTESIAN_POINT('',(26.25,0.,-1.5));
#315=(
GEOMETRIC_REPRESENTATION_CONTEXT(3)
GLOBAL_UNCERTAINTY_ASSIGNED_CONTEXT((#316))
GLOBAL_UNIT_ASSIGNED_CONTEXT((#322,#318,#317))
REPRESENTATION_CONTEXT('2046','TOP_LEVEL_ASSEMBLY_PART')
);
#316=UNCERTAINTY_MEASURE_WITH_UNIT(LENGTH_MEASURE(2.E-005),#322,
'DISTANCE_ACCURACY_VALUE','Maximum Tolerance applied to model');
#317=(
NAMED_UNIT(*)
SI_UNIT($,.STERADIAN.)
SOLID_ANGLE_UNIT()
);
#318=(
CONVERSION_BASED_UNIT('DEGREE',#320)
NAMED_UNIT(#319)
PLANE_ANGLE_UNIT()
);
#319=DIMENSIONAL_EXPONENTS(0.,0.,0.,0.,0.,0.,0.);
#320=PLANE_ANGLE_MEASURE_WITH_UNIT(PLANE_ANGLE_MEASURE(0.0174532925),#321);
#321=(
NAMED_UNIT(*)
PLANE_ANGLE_UNIT()
SI_UNIT($,.RADIAN.)
);
#322=(
LENGTH_UNIT()
NAMED_UNIT(*)
SI_UNIT(.MILLI.,.METRE.)
);
ENDSEC;
END-ISO-10303-21;
